  0
SECTION
  2
HEADER
  9
$ACADVER
  1
AC1015
  9
$ACADMAINTVER
 70
     6
  9
$DWGCODEPAGE
  3
ANSI_1254
  9
$INSBASE
 10
0.0
 20
0.0
 30
0.0
  9
$EXTMIN
 10
0.0
 20
0.0
 30
0.0
  9
$EXTMAX
 10
279.4
 20
215.9
 30
0.0
  9
$LIMMIN
 10
0.0
 20
0.0
  9
$LIMMAX
 10
279.4
 20
215.9
  9
$ORTHOMODE
 70
     0
  9
$REGENMODE
 70
     1
  9
$FILLMODE
 70
     1
  9
$QTEXTMODE
 70
     0
  9
$MIRRTEXT
 70
     1
  9
$LTSCALE
 40
1.0
  9
$ATTMODE
 70
     1
  9
$TEXTSIZE
 40
3.5
  9
$TRACEWID
 40
1.0
  9
$TEXTSTYLE
  7
Standard
  9
$CLAYER
  8
0
  9
$CELTYPE
  6
ByLayer
  9
$CECOLOR
 62
   256
  9
$CELTSCALE
 40
1.0
  9
$DISPSILH
 70
     0
  9
$DIMSCALE
 40
1.0
  9
$DIMASZ
 40
3.5
  9
$DIMEXO
 40
1.0
  9
$DIMDLI
 40
3.75
  9
$DIMRND
 40
0.0
  9
$DIMDLE
 40
0.0
  9
$DIMEXE
 40
1.0
  9
$DIMTP
 40
0.0
  9
$DIMTM
 40
0.0
  9
$DIMTXT
 40
3.5
  9
$DIMCEN
 40
2.5
  9
$DIMTSZ
 40
0.0
  9
$DIMTOL
 70
     0
  9
$DIMLIM
 70
     0
  9
$DIMTIH
 70
     1
  9
$DIMTOH
 70
     1
  9
$DIMSE1
 70
     0
  9
$DIMSE2
 70
     0
  9
$DIMTAD
 70
     1
  9
$DIMZIN
 70
     0
  9
$DIMBLK
  1

  9
$DIMASO
 70
     1
  9
$DIMSHO
 70
     1
  9
$DIMPOST
  1

  9
$DIMAPOST
  1

  9
$DIMALT
 70
     0
  9
$DIMALTD
 70
     3
  9
$DIMALTF
 40
0.0393700787
  9
$DIMLFAC
 40
1.0
  9
$DIMTOFL
 70
     1
  9
$DIMTVP
 40
0.0
  9
$DIMTIX
 70
     0
  9
$DIMSOXD
 70
     0
  9
$DIMSAH
 70
     0
  9
$DIMBLK1
  1

  9
$DIMBLK2
  1

  9
$DIMSTYLE
  2
ISO-25
  9
$DIMCLRD
 70
     0
  9
$DIMCLRE
 70
     0
  9
$DIMCLRT
 70
     0
  9
$DIMTFAC
 40
1.0
  9
$DIMGAP
 40
1.524
  9
$DIMJUST
 70
     0
  9
$DIMSD1
 70
     0
  9
$DIMSD2
 70
     0
  9
$DIMTOLJ
 70
     0
  9
$DIMTZIN
 70
     0
  9
$DIMALTZ
 70
     0
  9
$DIMALTTZ
 70
     0
  9
$DIMUPT
 70
     0
  9
$DIMDEC
 70
     2
  9
$DIMTDEC
 70
     2
  9
$DIMALTU
 70
     2
  9
$DIMALTTD
 70
     3
  9
$DIMTXSTY
  7
Standard
  9
$DIMAUNIT
 70
     0
  9
$DIMADEC
 70
     2
  9
$DIMALTRND
 40
0.0
  9
$DIMAZIN
 70
     0
  9
$DIMDSEP
 70
    44
  9
$DIMATFIT
 70
     3
  9
$DIMFRAC
 70
     0
  9
$DIMLDRBLK
  1

  9
$DIMLUNIT
 70
     2
  9
$DIMLWD
 70
    -2
  9
$DIMLWE
 70
    -2
  9
$DIMTMOVE
 70
     0
  9
$LUNITS
 70
     2
  9
$LUPREC
 70
     2
  9
$SKETCHINC
 40
1.0
  9
$FILLETRAD
 40
10.0
  9
$AUNITS
 70
     0
  9
$AUPREC
 70
     2
  9
$MENU
  1
.
  9
$ELEVATION
 40
0.0
  9
$PELEVATION
 40
0.0
  9
$THICKNESS
 40
0.0
  9
$LIMCHECK
 70
     0
  9
$CHAMFERA
 40
0.0
  9
$CHAMFERB
 40
0.0
  9
$CHAMFERC
 40
0.0
  9
$CHAMFERD
 40
0.0
  9
$SKPOLY
 70
     0
  9
$TDCREATE
 40
2458985.698441018
  9
$TDUCREATE
 40
2458985.573441018
  9
$TDUPDATE
 40
2458985.698441574
  9
$TDUUPDATE
 40
2458985.573441574
  9
$TDINDWG
 40
0.0000000116
  9
$TDUSRTIMER
 40
0.0000000116
  9
$USRTIMER
 70
     1
  9
$ANGBASE
 50
0.0
  9
$ANGDIR
 70
     0
  9
$PDMODE
 70
     0
  9
$PDSIZE
 40
-1.0
  9
$PLINEWID
 40
0.0
  9
$SPLFRAME
 70
     0
  9
$SPLINETYPE
 70
     6
  9
$SPLINESEGS
 70
     8
  9
$HANDSEED
  5
EA
  9
$SURFTAB1
 70
     6
  9
$SURFTAB2
 70
     6
  9
$SURFTYPE
 70
     6
  9
$SURFU
 70
     6
  9
$SURFV
 70
     6
  9
$UCSBASE
  2

  9
$UCSNAME
  2

  9
$UCSORG
 10
0.0
 20
0.0
 30
0.0
  9
$UCSXDIR
 10
1.0
 20
0.0
 30
0.0
  9
$UCSYDIR
 10
0.0
 20
1.0
 30
0.0
  9
$UCSORTHOREF
  2

  9
$UCSORTHOVIEW
 70
     0
  9
$UCSORGTOP
 10
0.0
 20
0.0
 30
0.0
  9
$UCSORGBOTTOM
 10
0.0
 20
0.0
 30
0.0
  9
$UCSORGLEFT
 10
0.0
 20
0.0
 30
0.0
  9
$UCSORGRIGHT
 10
0.0
 20
0.0
 30
0.0
  9
$UCSORGFRONT
 10
0.0
 20
0.0
 30
0.0
  9
$UCSORGBACK
 10
0.0
 20
0.0
 30
0.0
  9
$PUCSBASE
  2

  9
$PUCSNAME
  2

  9
$PUCSORG
 10
0.0
 20
0.0
 30
0.0
  9
$PUCSXDIR
 10
1.0
 20
0.0
 30
0.0
  9
$PUCSYDIR
 10
0.0
 20
1.0
 30
0.0
  9
$PUCSORTHOREF
  2

  9
$PUCSORTHOVIEW
 70
     0
  9
$PUCSORGTOP
 10
0.0
 20
0.0
 30
0.0
  9
$PUCSORGBOTTOM
 10
0.0
 20
0.0
 30
0.0
  9
$PUCSORGLEFT
 10
0.0
 20
0.0
 30
0.0
  9
$PUCSORGRIGHT
 10
0.0
 20
0.0
 30
0.0
  9
$PUCSORGFRONT
 10
0.0
 20
0.0
 30
0.0
  9
$PUCSORGBACK
 10
0.0
 20
0.0
 30
0.0
  9
$USERI1
 70
     0
  9
$USERI2
 70
     0
  9
$USERI3
 70
     0
  9
$USERI4
 70
     0
  9
$USERI5
 70
     0
  9
$USERR1
 40
0.0
  9
$USERR2
 40
0.0
  9
$USERR3
 40
0.0
  9
$USERR4
 40
0.0
  9
$USERR5
 40
0.0
  9
$WORLDVIEW
 70
     1
  9
$SHADEDGE
 70
     3
  9
$SHADEDIF
 70
    70
  9
$TILEMODE
 70
     1
  9
$MAXACTVP
 70
    64
  9
$PINSBASE
 10
0.0
 20
0.0
 30
0.0
  9
$PLIMCHECK
 70
     0
  9
$PEXTMIN
 10
1.0000000000E+20
 20
1.0000000000E+20
 30
1.0000000000E+20
  9
$PEXTMAX
 10
-1.0000000000E+20
 20
-1.0000000000E+20
 30
-1.0000000000E+20
  9
$PLIMMIN
 10
0.0
 20
0.0
  9
$PLIMMAX
 10
420.0
 20
297.0
  9
$UNITMODE
 70
     0
  9
$VISRETAIN
 70
     1
  9
$PLINEGEN
 70
     0
  9
$PSLTSCALE
 70
     1
  9
$TREEDEPTH
 70
  3020
  9
$CMLSTYLE
  2
Standard
  9
$CMLJUST
 70
     0
  9
$CMLSCALE
 40
20.0
  9
$PROXYGRAPHICS
 70
     1
  9
$MEASUREMENT
 70
     1
  9
$CELWEIGHT
370
    -1
  9
$ENDCAPS
280
     0
  9
$JOINSTYLE
280
     0
  9
$LWDISPLAY
290
     1
  9
$INSUNITS
 70
     4
  9
$HYPERLINKBASE
  1

  9
$STYLESHEET
  1

  9
$XEDIT
290
     1
  9
$CEPSNTYPE
380
     0
  9
$PSTYLEMODE
290
     1
  9
$FINGERPRINTGUID
  2
{0a7624d6-5d17-49ba-8c39-26010302ca0c}
  9
$VERSIONGUID
  2
{FAEB1C32-E019-11D5-929B-00C0DF256EC4}
  9
$EXTNAMES
290
     1
  9
$PSVPSCALE
 40
0.0
  9
$OLESTARTUP
290
     0
  0
ENDSEC
  0
SECTION
  2
CLASSES
  0
CLASS
  1
ACDBDICTIONARYWDFLT
  2
AcDbDictionaryWithDefault
  3
ObjectDBX Classes
 90
        0
280
     0
281
     0
  0
CLASS
  1
VISUALSTYLE
  2
AcDbVisualStyle
  3
ObjectDBX Classes
 90
     4095
280
     0
281
     0
  0
CLASS
  1
MATERIAL
  2
AcDbMaterial
  3
ObjectDBX Classes
 90
     1153
280
     0
281
     0
  0
CLASS
  1
SCALE
  2
AcDbScale
  3
ObjectDBX Classes
 90
     1153
280
     0
281
     0
  0
CLASS
  1
TABLESTYLE
  2
AcDbTableStyle
  3
ObjectDBX Classes
 90
     4095
280
     0
281
     0
  0
CLASS
  1
MLEADERSTYLE
  2
AcDbMLeaderStyle
  3
ACDB_MLEADERSTYLE_CLASS
 90
     4095
280
     0
281
     0
  0
CLASS
  1
SUN
  2
AcDbSun
  3
SCENEOE
 90
     1153
280
     0
281
     0
  0
CLASS
  1
ACDBPLACEHOLDER
  2
AcDbPlaceHolder
  3
ObjectDBX Classes
 90
        0
280
     0
281
     0
  0
CLASS
  1
LAYOUT
  2
AcDbLayout
  3
ObjectDBX Classes
 90
        0
280
     0
281
     0
  0
ENDSEC
  0
SECTION
  2
TABLES
  0
TABLE
  2
VPORT
  5
8
330
0
100
AcDbSymbolTable
 70
     1
  0
VPORT
  5
29
330
8
100
AcDbSymbolTableRecord
100
AcDbViewportTableRecord
  2
*Active
 70
     0
 10
0.0
 20
0.0
 11
1.0
 21
1.0
 12
139.7
 22
107.95
 13
0.0
 23
0.0
 14
10.0
 24
10.0
 15
10.0
 25
10.0
 16
0.0
 26
0.0
 36
1.0
 17
0.0
 27
0.0
 37
0.0
 40
215.9
 41
1.2941176471
 42
50.0
 43
0.0
 44
0.0
 50
0.0
 51
0.0
 71
     0
 72
  2000
 73
     1
 74
     3
 75
     0
 76
     0
 77
     0
 78
     0
281
     0
 65
     1
110
0.0
120
0.0
130
0.0
111
1.0
121
0.0
131
0.0
112
0.0
122
1.0
132
0.0
 79
     0
146
0.0
  0
ENDTAB
  0
TABLE
  2
LTYPE
  5
5
330
0
100
AcDbSymbolTable
 70
     6
  0
LTYPE
  5
14
330
5
100
AcDbSymbolTableRecord
100
AcDbLinetypeTableRecord
  2
ByBlock
 70
     0
  3

 72
    65
 73
     0
 40
0.0
  0
LTYPE
  5
15
330
5
100
AcDbSymbolTableRecord
100
AcDbLinetypeTableRecord
  2
ByLayer
 70
     0
  3

 72
    65
 73
     0
 40
0.0
  0
LTYPE
  5
16
330
5
100
AcDbSymbolTableRecord
100
AcDbLinetypeTableRecord
  2
Continuous
 70
     0
  3
Solid line
 72
    65
 73
     0
 40
0.0
  0
LTYPE
  5
6E
330
5
100
AcDbSymbolTableRecord
100
AcDbLinetypeTableRecord
  2
HIDDEN
 70
     0
  3
Hidden __ __ __ __ __ __ __ __ __ __ __ __ __ __
 72
    65
 73
     2
 40
1.905
 49
1.27
 74
     0
 49
-0.635
 74
     0
  0
LTYPE
  5
6F
330
5
100
AcDbSymbolTableRecord
100
AcDbLinetypeTableRecord
  2
PHANTOM
 70
     0
  3
Phantom ______  __  __  ______  __  __  ______
 72
    65
 73
     6
 40
12.7
 49
6.35
 74
     0
 49
-1.27
 74
     0
 49
1.27
 74
     0
 49
-1.27
 74
     0
 49
1.27
 74
     0
 49
-1.27
 74
     0
  0
LTYPE
  5
70
330
5
100
AcDbSymbolTableRecord
100
AcDbLinetypeTableRecord
  2
CENTER
 70
     0
  3
Center ____ _ ____ _ ____ _ ____ _ ____ _ ____
 72
    65
 73
     4
 40
10.16
 49
6.35
 74
     0
 49
-1.27
 74
     0
 49
1.27
 74
     0
 49
-1.27
 74
     0
  0
LTYPE
  5
71
330
5
100
AcDbSymbolTableRecord
100
AcDbLinetypeTableRecord
  2
CENTERX2
 70
     0
  3
Center (2x) ________  __  ________  __  _____
 72
    65
 73
     4
 40
20.32
 49
12.7
 74
     0
 49
-2.54
 74
     0
 49
2.54
 74
     0
 49
-2.54
 74
     0
  0
LTYPE
  5
72
330
5
100
AcDbSymbolTableRecord
100
AcDbLinetypeTableRecord
  2
DOT2
 70
     0
  3
Dot (.5x) ........................................
 72
    65
 73
     2
 40
0.635
 49
0.0
 74
     0
 49
-0.635
 74
     0
  0
ENDTAB
  0
TABLE
  2
LAYER
  5
2
330
0
100
AcDbSymbolTable
 70
    17
  0
LAYER
  5
10
330
2
100
AcDbSymbolTableRecord
100
AcDbLayerTableRecord
  2
0
 70
     0
 62
     7
  6
Continuous
370
    -3
390
F
  0
LAYER
  5
73
330
2
100
AcDbSymbolTableRecord
100
AcDbLayerTableRecord
  2
FORMAT
 70
     0
 62
     7
  6
Continuous
370
    -3
390
F
  0
LAYER
  5
74
330
2
100
AcDbSymbolTableRecord
100
AcDbLayerTableRecord
  2
YARDIMCI_GEOMETRI
 70
     0
 62
    -6
  6
Continuous
290
     0
370
    -3
390
F
  0
LAYER
  5
75
330
2
100
AcDbSymbolTableRecord
100
AcDbLayerTableRecord
  2
SAYFA_CERCEVESI
 70
     0
 62
     7
  6
Continuous
370
    25
390
F
  0
LAYER
  5
76
330
2
100
AcDbSymbolTableRecord
100
AcDbLayerTableRecord
  2
ANTET
 70
     0
 62
     7
  6
Continuous
370
    -3
390
F
  0
LAYER
  5
77
330
2
100
AcDbSymbolTableRecord
100
AcDbLayerTableRecord
  2
OLCU
 70
     0
 62
   150
  6
Continuous
370
    -3
390
F
  0
LAYER
  5
78
330
2
100
AcDbSymbolTableRecord
100
AcDbLayerTableRecord
  2
METIN
 70
     0
 62
    96
  6
Continuous
370
    -3
390
F
  0
LAYER
  5
79
330
2
100
AcDbSymbolTableRecord
100
AcDbLayerTableRecord
  2
BALON
 70
     0
 62
     5
  6
Continuous
370
    -3
390
F
  0
LAYER
  5
7A
330
2
100
AcDbSymbolTableRecord
100
AcDbLayerTableRecord
  2
VURGU
 70
     0
 62
     7
  6
Continuous
370
    -3
390
F
  0
LAYER
  5
7B
330
2
100
AcDbSymbolTableRecord
100
AcDbLayerTableRecord
  2
SILIK
 70
     0
 62
     7
  6
Continuous
370
    -3
390
F
  0
LAYER
  5
7C
330
2
100
AcDbSymbolTableRecord
100
AcDbLayerTableRecord
  2
MODEL
 70
     0
 62
     7
  6
Continuous
370
    -3
390
F
  0
LAYER
  5
7D
330
2
100
AcDbSymbolTableRecord
100
AcDbLayerTableRecord
  2
DETAYLANDıRMA
 70
     0
 62
   190
  6
Continuous
370
    -3
390
F
  0
LAYER
  5
7E
330
2
100
AcDbSymbolTableRecord
100
AcDbLayerTableRecord
  2
TOLERANS
 70
     0
 62
   230
  6
Continuous
370
    -3
390
F
  0
LAYER
  5
7F
330
2
100
AcDbSymbolTableRecord
100
AcDbLayerTableRecord
  2
MERKEZ_CIZGILERI
 70
     0
 62
    30
  6
Continuous
370
    -3
390
F
  0
LAYER
  5
80
330
2
100
AcDbSymbolTableRecord
100
AcDbLayerTableRecord
  2
KESIT-DETAY_CIZGILERI
 70
     0
 62
     7
  6
Continuous
370
    -3
390
F
  0
LAYER
  5
81
330
2
100
AcDbSymbolTableRecord
100
AcDbLayerTableRecord
  2
\U+041E\U+0421\U+0415\U+0412\U+042B\U+0415
 70
     0
 62
     7
  6
Continuous
370
    -3
390
F
  0
LAYER
  5
82
330
2
100
AcDbSymbolTableRecord
100
AcDbLayerTableRecord
  2
\U+0412\U+041E\U+0414\U+042F\U+041D\U+042B\U+0415_\U+0417\U+041D\U+0410\U+041A\U+0418
 70
     0
 62
    11
  6
Continuous
370
    -3
390
F
  0
ENDTAB
  0
TABLE
  2
STYLE
  5
3
330
0
100
AcDbSymbolTable
 70
     1
  0
STYLE
  5
11
330
3
100
AcDbSymbolTableRecord
100
AcDbTextStyleTableRecord
  2
Standard
 70
     0
 40
0.0
 41
1.0
 50
0.0
 71
     0
 42
3.5
  3
txt
  4

  0
ENDTAB
  0
TABLE
  2
VIEW
  5
6
330
0
100
AcDbSymbolTable
 70
     0
  0
ENDTAB
  0
TABLE
  2
UCS
  5
7
330
0
100
AcDbSymbolTable
 70
     0
  0
ENDTAB
  0
TABLE
  2
APPID
  5
9
330
0
100
AcDbSymbolTable
 70
     1
  0
APPID
  5
12
330
9
100
AcDbSymbolTableRecord
100
AcDbRegAppTableRecord
  2
ACAD
 70
     0
  0
ENDTAB
  0
TABLE
  2
DIMSTYLE
  5
A
330
0
100
AcDbSymbolTable
 70
     1
100
AcDbDimStyleTable
  0
DIMSTYLE
105
27
330
A
100
AcDbSymbolTableRecord
100
AcDbDimStyleTableRecord
  2
ISO-25
 70
     0
 41
2.5
 42
0.625
 43
3.75
 44
1.25
 73
     0
 74
     0
 77
     1
 78
     8
140
2.5
141
2.5
143
0.0393700787
147
0.625
171
     3
172
     1
178
     0
271
     2
272
     2
274
     3
278
    44
283
     0
284
     8
340
11
  0
ENDTAB
  0
TABLE
  2
BLOCK_RECORD
  5
1
330
0
100
AcDbSymbolTable
 70
     2
  0
BLOCK_RECORD
  5
1F
330
1
100
AcDbSymbolTableRecord
100
AcDbBlockTableRecord
  2
*Model_Space
340
22
  0
BLOCK_RECORD
  5
1B
330
1
100
AcDbSymbolTableRecord
100
AcDbBlockTableRecord
  2
*Paper_Space
340
1E
  0
BLOCK_RECORD
  5
23
330
1
100
AcDbSymbolTableRecord
100
AcDbBlockTableRecord
  2
*Paper_Space0
340
26
  0
BLOCK_RECORD
  5
88
330
1
100
AcDbSymbolTableRecord
100
AcDbBlockTableRecord
  2
SW_CENTERMARKSYMBOL_0
340
0
102
{BLKREFS
331
93
102
}
  0
ENDTAB
  0
ENDSEC
  0
SECTION
  2
BLOCKS
  0
BLOCK
  5
20
330
1F
100
AcDbEntity
  8
0
100
AcDbBlockBegin
  2
*Model_Space
 70
     0
 10
0.0
 20
0.0
 30
0.0
  3
*Model_Space
  1

  0
ENDBLK
  5
21
330
1F
100
AcDbEntity
  8
0
100
AcDbBlockEnd
  0
BLOCK
  5
1C
330
1B
100
AcDbEntity
 67
     1
  8
0
100
AcDbBlockBegin
  2
*Paper_Space
 70
     0
 10
0.0
 20
0.0
 30
0.0
  3
*Paper_Space
  1

  0
ENDBLK
  5
1D
330
1B
100
AcDbEntity
 67
     1
  8
0
100
AcDbBlockEnd
  0
BLOCK
  5
24
330
23
100
AcDbEntity
  8
0
100
AcDbBlockBegin
  2
*Paper_Space0
 70
     0
 10
0.0
 20
0.0
 30
0.0
  3
*Paper_Space0
  1

  0
ENDBLK
  5
25
330
23
100
AcDbEntity
  8
0
100
AcDbBlockEnd
  0
BLOCK
  5
89
330
88
100
AcDbEntity
  8
0
100
AcDbBlockBegin
  2
SW_CENTERMARKSYMBOL_0
 70
     0
 10
0.0
 20
0.0
 30
0.0
  3
SW_CENTERMARKSYMBOL_0
  1

  0
LINE
  5
8B
330
88
100
AcDbEntity
  8
FORMAT
 62
     0
100
AcDbLine
 10
0.0
 20
0.0
 30
0.0
 11
0.0
 21
2.5
 31
0.0
  0
LINE
  5
8C
330
88
100
AcDbEntity
  8
FORMAT
 62
     0
100
AcDbLine
 10
0.0
 20
0.0
 30
0.0
 11
-2.5
 21
0.0
 31
0.0
  0
LINE
  5
8D
330
88
100
AcDbEntity
  8
FORMAT
 62
     0
100
AcDbLine
 10
0.0
 20
0.0
 30
0.0
 11
0.0
 21
-2.5
 31
0.0
  0
LINE
  5
8E
330
88
100
AcDbEntity
  8
FORMAT
 62
     0
100
AcDbLine
 10
0.0
 20
0.0
 30
0.0
 11
2.5
 21
0.0
 31
0.0
  0
LINE
  5
8F
330
88
100
AcDbEntity
  8
FORMAT
 62
     0
100
AcDbLine
 10
0.0
 20
5.0
 30
0.0
 11
0.0
 21
18.5
 31
0.0
  0
LINE
  5
90
330
88
100
AcDbEntity
  8
FORMAT
 62
     0
100
AcDbLine
 10
-5.0
 20
0.0
 30
0.0
 11
-18.5
 21
0.0
 31
0.0
  0
LINE
  5
91
330
88
100
AcDbEntity
  8
FORMAT
 62
     0
100
AcDbLine
 10
0.0
 20
-5.0
 30
0.0
 11
0.0
 21
-18.5
 31
0.0
  0
LINE
  5
92
330
88
100
AcDbEntity
  8
FORMAT
 62
     0
100
AcDbLine
 10
5.0
 20
0.0
 30
0.0
 11
18.5
 21
0.0
 31
0.0
  0
ENDBLK
  5
8A
330
88
100
AcDbEntity
  8
0
100
AcDbBlockEnd
  0
ENDSEC
  0
SECTION
  2
ENTITIES
  0
CIRCLE
  5
83
330
1F
100
AcDbEntity
  8
0
  6
Continuous
 62
     7
370
    25
100
AcDbCircle
 10
139.395004093
 20
107.5851680021
 30
0.0
 40
16.0
  0
CIRCLE
  5
84
330
1F
100
AcDbEntity
  8
0
  6
Continuous
 62
     7
370
    25
100
AcDbCircle
 10
139.395004093
 20
107.5851680021
 30
0.0
 40
13.00000000000001
  0
CIRCLE
  5
85
330
1F
100
AcDbEntity
  8
0
  6
Continuous
 62
     7
370
    25
100
AcDbCircle
 10
139.395004093
 20
107.5851680021
 30
0.0
 40
12.9029033784546
  0
CIRCLE
  5
86
330
1F
100
AcDbEntity
  8
0
  6
Continuous
 62
     7
370
    25
100
AcDbCircle
 10
139.395004093
 20
107.5851680021
 30
0.0
 40
7.097096621545404
  0
CIRCLE
  5
87
330
1F
100
AcDbEntity
  8
0
  6
Continuous
 62
     7
370
    25
100
AcDbCircle
 10
139.395004093
 20
107.5851680021
 30
0.0
 40
7.0
  0
INSERT
  5
93
330
1F
100
AcDbEntity
  8
FORMAT
 62
     7
100
AcDbBlockReference
  2
SW_CENTERMARKSYMBOL_0
 10
139.395004093
 20
107.5851680021
 30
0.0
  0
LINE
  5
94
330
1F
100
AcDbEntity
  8
0
  6
Continuous
 62
     7
370
    25
100
AcDbLine
 10
-4.0936717611
 20
123.5851687621
 30
0.0
 11
-47.8956332278
 21
123.5851687621
 31
0.0
  0
LINE
  5
95
330
1F
100
AcDbEntity
  8
0
  6
Continuous
 62
     7
370
    25
100
AcDbLine
 10
-47.8956332278
 20
91.5851672422
 30
0.0
 11
-4.0936717611
 21
91.5851672422
 31
0.0
  0
ARC
  5
96
330
1F
100
AcDbEntity
  8
0
  6
Continuous
 62
     7
370
    25
100
AcDbCircle
 10
-4.0936718974
 20
121.5851680021
 30
0.0
 40
2.000000000000006
100
AcDbArc
 50
78.690067526
 51
90.0
  0
ARC
  5
97
330
1F
100
AcDbEntity
  8
0
  6
Continuous
 62
     7
370
    25
100
AcDbCircle
 10
-4.0936718974
 20
93.5851680021
 30
0.0
 40
2.00000000000002
100
AcDbArc
 50
270.0
 51
281.309932474
  0
LINE
  5
98
330
1F
100
AcDbEntity
  8
0
  6
Continuous
 62
     7
370
    25
100
AcDbLine
 10
-3.7014396709
 20
91.6240071188
 30
0.0
 11
25.9101739305
 21
97.5463292803
 31
0.0
  0
LINE
  5
99
330
1F
100
AcDbEntity
  8
0
  6
Continuous
 62
     7
370
    25
100
AcDbLine
 10
25.9101739305
 20
117.6240067239
 30
0.0
 11
-3.7014396709
 21
123.5463288854
 31
0.0
  0
ARC
  5
9A
330
1F
100
AcDbEntity
  8
0
  6
Continuous
 62
     7
370
    25
100
AcDbCircle
 10
26.302406157
 20
119.5851680021
 30
0.0
 40
1.999999999999986
100
AcDbArc
 50
258.690067526
 51
270.0
  0
ARC
  5
9B
330
1F
100
AcDbEntity
  8
0
  6
Continuous
 62
     7
370
    25
100
AcDbCircle
 10
26.302406157
 20
95.5851680021
 30
0.0
 40
1.999999999999992
100
AcDbArc
 50
90.0
 51
101.309932474
  0
LINE
  5
9C
330
1F
100
AcDbEntity
  8
0
  6
Continuous
 62
     7
370
    25
100
AcDbLine
 10
67.1043688583
 20
117.5851677786
 30
0.0
 11
26.3024060208
 21
117.5851677786
 31
0.0
  0
LINE
  5
9D
330
1F
100
AcDbEntity
  8
0
  6
Continuous
 62
     7
370
    25
100
AcDbLine
 10
26.3024060208
 20
97.5851682256
 30
0.0
 11
67.1043688583
 21
97.5851682256
 31
0.0
  0
LINE
  5
9E
330
1F
100
AcDbEntity
  8
0
  6
Continuous
 62
     7
370
    25
100
AcDbLine
 10
-47.8956332278
 20
123.5851687621
 30
0.0
 11
-47.8956332278
 21
91.5851672422
 31
0.0
  0
LINE
  5
9F
330
1F
100
AcDbEntity
  8
0
  6
Continuous
 62
     7
370
    25
100
AcDbLine
 10
67.1043688583
 20
117.5851677786
 30
0.0
 11
67.1043688583
 21
97.5851682256
 31
0.0
  0
LINE
  5
A0
330
1F
100
AcDbEntity
  8
0
  6
Continuous
 62
     1
370
    25
100
AcDbLine
 10
-4.0936717611
 20
123.5851687621
 30
0.0
 11
-4.0936717611
 21
91.5851672422
 31
0.0
  0
LINE
  5
A1
330
1F
100
AcDbEntity
  8
0
  6
Continuous
 62
     1
370
    25
100
AcDbLine
 10
-3.7014396709
 20
123.5463288854
 30
0.0
 11
-3.7014396709
 21
91.6240071188
 31
0.0
  0
LINE
  5
A2
330
1F
100
AcDbEntity
  8
0
  6
Continuous
 62
     1
370
    25
100
AcDbLine
 10
25.9101739305
 20
117.6240067239
 30
0.0
 11
25.9101739305
 21
97.5463292803
 31
0.0
  0
LINE
  5
A3
330
1F
100
AcDbEntity
  8
0
  6
Continuous
 62
     1
370
    25
100
AcDbLine
 10
26.3024060208
 20
117.5851677786
 30
0.0
 11
26.3024060208
 21
97.5851682256
 31
0.0
  0
LINE
  5
A4
330
1F
100
AcDbEntity
  8
0
  6
Continuous
 62
     7
370
    25
100
AcDbLine
 10
282.0514373292
 20
91.5851672422
 30
0.0
 11
325.8533987958
 21
91.5851672422
 31
0.0
  0
LINE
  5
A5
330
1F
100
AcDbEntity
  8
0
  6
Continuous
 62
     7
370
    25
100
AcDbLine
 10
325.8533987958
 20
123.5851687621
 30
0.0
 11
282.0514373292
 21
123.5851687621
 31
0.0
  0
ARC
  5
A6
330
1F
100
AcDbEntity
  8
0
  6
Continuous
 62
     7
370
    25
100
AcDbCircle
 10
282.0514374654
 20
93.5851680021
 30
0.0
 40
2.000000000000025
100
AcDbArc
 50
258.690067526
 51
270.0
  0
ARC
  5
A7
330
1F
100
AcDbEntity
  8
0
  6
Continuous
 62
     7
370
    25
100
AcDbCircle
 10
282.0514374654
 20
121.5851680021
 30
0.0
 40
2.000000000000012
100
AcDbArc
 50
90.0
 51
101.309932474
  0
LINE
  5
A8
330
1F
100
AcDbEntity
  8
0
  6
Continuous
 62
     7
370
    25
100
AcDbLine
 10
281.6592052389
 20
123.5463288854
 30
0.0
 11
252.0475916375
 21
117.6240067239
 31
0.0
  0
LINE
  5
A9
330
1F
100
AcDbEntity
  8
0
  6
Continuous
 62
     7
370
    25
100
AcDbLine
 10
252.0475916375
 20
97.5463292803
 30
0.0
 11
281.6592052389
 21
91.6240071188
 31
0.0
  0
ARC
  5
AA
330
1F
100
AcDbEntity
  8
0
  6
Continuous
 62
     7
370
    25
100
AcDbCircle
 10
251.655359411
 20
95.5851680021
 30
0.0
 40
1.999999999999992
100
AcDbArc
 50
78.690067526
 51
90.0
  0
ARC
  5
AB
330
1F
100
AcDbEntity
  8
0
  6
Continuous
 62
     7
370
    25
100
AcDbCircle
 10
251.655359411
 20
119.5851680021
 30
0.0
 40
1.999999999999986
100
AcDbArc
 50
270.0
 51
281.309932474
  0
LINE
  5
AC
330
1F
100
AcDbEntity
  8
0
  6
Continuous
 62
     7
370
    25
100
AcDbLine
 10
210.8533967097
 20
97.5851682256
 30
0.0
 11
251.6553595472
 21
97.5851682256
 31
0.0
  0
LINE
  5
AD
330
1F
100
AcDbEntity
  8
0
  6
Continuous
 62
     7
370
    25
100
AcDbLine
 10
251.6553595472
 20
117.5851677786
 30
0.0
 11
210.8533967097
 21
117.5851677786
 31
0.0
  0
LINE
  5
AE
330
1F
100
AcDbEntity
  8
0
  6
Continuous
 62
     7
370
    25
100
AcDbLine
 10
325.8533987958
 20
107.5851680021
 30
0.0
 11
325.8533987958
 21
123.5851687621
 31
0.0
  0
LINE
  5
AF
330
1F
100
AcDbEntity
  8
0
  6
Continuous
 62
     7
370
    25
100
AcDbLine
 10
325.8533987958
 20
91.5851672422
 30
0.0
 11
325.8533987958
 21
107.5851680021
 31
0.0
  0
LINE
  5
B0
330
1F
100
AcDbEntity
  8
0
  6
Continuous
 62
     7
370
    25
100
AcDbLine
 10
210.8533967097
 20
107.5851680021
 30
0.0
 11
210.8533967097
 21
117.5851677786
 31
0.0
  0
LINE
  5
B1
330
1F
100
AcDbEntity
  8
0
  6
Continuous
 62
     7
370
    25
100
AcDbLine
 10
210.8533967097
 20
97.5851682256
 30
0.0
 11
210.8533967097
 21
107.5851680021
 31
0.0
  0
LINE
  5
B2
330
1F
100
AcDbEntity
  8
0
  6
Continuous
 62
     1
370
    25
100
AcDbLine
 10
282.0514373292
 20
107.5851680021
 30
0.0
 11
282.0514373292
 21
123.5851687621
 31
0.0
  0
LINE
  5
B3
330
1F
100
AcDbEntity
  8
0
  6
Continuous
 62
     1
370
    25
100
AcDbLine
 10
282.0514373292
 20
91.5851672422
 30
0.0
 11
282.0514373292
 21
107.5851680021
 31
0.0
  0
LINE
  5
B4
330
1F
100
AcDbEntity
  8
0
  6
Continuous
 62
     1
370
    25
100
AcDbLine
 10
281.6592052389
 20
107.5851680021
 30
0.0
 11
281.6592052389
 21
123.5463288854
 31
0.0
  0
LINE
  5
B5
330
1F
100
AcDbEntity
  8
0
  6
Continuous
 62
     1
370
    25
100
AcDbLine
 10
281.6592052389
 20
91.6240071188
 30
0.0
 11
281.6592052389
 21
107.5851680021
 31
0.0
  0
LINE
  5
B6
330
1F
100
AcDbEntity
  8
0
  6
Continuous
 62
     1
370
    25
100
AcDbLine
 10
252.0475916375
 20
107.5851680021
 30
0.0
 11
252.0475916375
 21
117.6240067239
 31
0.0
  0
LINE
  5
B7
330
1F
100
AcDbEntity
  8
0
  6
Continuous
 62
     1
370
    25
100
AcDbLine
 10
252.0475916375
 20
97.5463292803
 30
0.0
 11
252.0475916375
 21
107.5851680021
 31
0.0
  0
LINE
  5
B8
330
1F
100
AcDbEntity
  8
0
  6
Continuous
 62
     1
370
    25
100
AcDbLine
 10
251.6553595472
 20
107.5851680021
 30
0.0
 11
251.6553595472
 21
117.5851677786
 31
0.0
  0
LINE
  5
B9
330
1F
100
AcDbEntity
  8
0
  6
Continuous
 62
     1
370
    25
100
AcDbLine
 10
251.6553595472
 20
97.5851682256
 30
0.0
 11
251.6553595472
 21
107.5851680021
 31
0.0
  0
LINE
  5
BA
330
1F
100
AcDbEntity
  8
0
  6
Continuous
 62
     7
370
    25
100
AcDbLine
 10
155.395004853
 20
250.7882855796
 30
0.0
 11
155.395004853
 21
294.5902470463
 31
0.0
  0
LINE
  5
BB
330
1F
100
AcDbEntity
  8
0
  6
Continuous
 62
     7
370
    25
100
AcDbLine
 10
123.3950033331
 20
294.5902470463
 30
0.0
 11
123.3950033331
 21
250.7882855796
 31
0.0
  0
ARC
  5
BC
330
1F
100
AcDbEntity
  8
0
  6
Continuous
 62
     7
370
    25
100
AcDbCircle
 10
153.395004093
 20
250.7882857159
 30
0.0
 40
2.000000000000014
100
AcDbArc
 50
348.690067526
 51
0.0
  0
ARC
  5
BD
330
1F
100
AcDbEntity
  8
0
  6
Continuous
 62
     7
370
    25
100
AcDbCircle
 10
125.395004093
 20
250.7882857159
 30
0.0
 40
2.000000000000014
100
AcDbArc
 50
180.0
 51
191.309932474
  0
LINE
  5
BE
330
1F
100
AcDbEntity
  8
0
  6
Continuous
 62
     7
370
    25
100
AcDbLine
 10
123.4338432097
 20
250.3960534894
 30
0.0
 11
129.3561653712
 21
220.7844398879
 31
0.0
  0
LINE
  5
BF
330
1F
100
AcDbEntity
  8
0
  6
Continuous
 62
     7
370
    25
100
AcDbLine
 10
149.4338428149
 20
220.7844398879
 30
0.0
 11
155.3561649764
 21
250.3960534894
 31
0.0
  0
ARC
  5
C0
330
1F
100
AcDbEntity
  8
0
  6
Continuous
 62
     7
370
    25
100
AcDbCircle
 10
151.395004093
 20
220.3922076615
 30
0.0
 40
2.0
100
AcDbArc
 50
168.690067526
 51
180.0
  0
ARC
  5
C1
330
1F
100
AcDbEntity
  8
0
  6
Continuous
 62
     7
370
    25
100
AcDbCircle
 10
127.395004093
 20
220.3922076615
 30
0.0
 40
2.000000000000014
100
AcDbArc
 50
0.0
 51
11.309932474
  0
LINE
  5
C2
330
1F
100
AcDbEntity
  8
0
  6
Continuous
 62
     7
370
    25
100
AcDbLine
 10
149.3950038695
 20
179.5902449601
 30
0.0
 11
149.3950038695
 21
220.3922077977
 31
0.0
  0
LINE
  5
C3
330
1F
100
AcDbEntity
  8
0
  6
Continuous
 62
     7
370
    25
100
AcDbLine
 10
129.3950043166
 20
220.3922077977
 30
0.0
 11
129.3950043166
 21
179.5902449601
 31
0.0
  0
LINE
  5
C4
330
1F
100
AcDbEntity
  8
0
  6
Continuous
 62
     7
370
    25
100
AcDbLine
 10
155.395004853
 20
294.5902470463
 30
0.0
 11
123.3950033331
 21
294.5902470463
 31
0.0
  0
LINE
  5
C5
330
1F
100
AcDbEntity
  8
0
  6
Continuous
 62
     7
370
    25
100
AcDbLine
 10
149.3950038695
 20
179.5902449601
 30
0.0
 11
129.3950043166
 21
179.5902449601
 31
0.0
  0
LINE
  5
C6
330
1F
100
AcDbEntity
  8
0
  6
Continuous
 62
     1
370
    25
100
AcDbLine
 10
155.395004853
 20
250.7882855796
 30
0.0
 11
123.3950033331
 21
250.7882855796
 31
0.0
  0
LINE
  5
C7
330
1F
100
AcDbEntity
  8
0
  6
Continuous
 62
     1
370
    25
100
AcDbLine
 10
155.3561649764
 20
250.3960534894
 30
0.0
 11
123.4338432097
 21
250.3960534894
 31
0.0
  0
LINE
  5
C8
330
1F
100
AcDbEntity
  8
0
  6
Continuous
 62
     1
370
    25
100
AcDbLine
 10
149.4338428149
 20
220.7844398879
 30
0.0
 11
129.3561653712
 21
220.7844398879
 31
0.0
  0
LINE
  5
C9
330
1F
100
AcDbEntity
  8
0
  6
Continuous
 62
     1
370
    25
100
AcDbLine
 10
149.3950038695
 20
220.3922077977
 30
0.0
 11
129.3950043166
 21
220.3922077977
 31
0.0
  0
LINE
  5
CA
330
1F
100
AcDbEntity
  8
0
  6
Continuous
 62
     7
370
    25
100
AcDbLine
 10
123.3950033331
 20
-21.6535224233
 30
0.0
 11
123.3950033331
 21
-65.4554838899
 31
0.0
  0
LINE
  5
CB
330
1F
100
AcDbEntity
  8
0
  6
Continuous
 62
     7
370
    25
100
AcDbLine
 10
155.395004853
 20
-65.4554838899
 30
0.0
 11
155.395004853
 21
-21.6535224233
 31
0.0
  0
ARC
  5
CC
330
1F
100
AcDbEntity
  8
0
  6
Continuous
 62
     7
370
    25
100
AcDbCircle
 10
125.395004093
 20
-21.6535225595
 30
0.0
 40
2.00000000000002
100
AcDbArc
 50
168.690067526
 51
180.0
  0
ARC
  5
CD
330
1F
100
AcDbEntity
  8
0
  6
Continuous
 62
     7
370
    25
100
AcDbCircle
 10
153.395004093
 20
-21.6535225595
 30
0.0
 40
2.00000000000002
100
AcDbArc
 50
0.0
 51
11.309932474
  0
LINE
  5
CE
330
1F
100
AcDbEntity
  8
0
  6
Continuous
 62
     7
370
    25
100
AcDbLine
 10
155.3561649764
 20
-21.261290333
 30
0.0
 11
149.4338428149
 21
8.3503232684
 31
0.0
  0
LINE
  5
CF
330
1F
100
AcDbEntity
  8
0
  6
Continuous
 62
     7
370
    25
100
AcDbLine
 10
129.3561653712
 20
8.3503232684
 30
0.0
 11
123.4338432097
 21
-21.261290333
 31
0.0
  0
ARC
  5
D0
330
1F
100
AcDbEntity
  8
0
  6
Continuous
 62
     7
370
    25
100
AcDbCircle
 10
127.395004093
 20
8.7425554949
 30
0.0
 40
2.000000000000014
100
AcDbArc
 50
348.690067526
 51
0.0
  0
ARC
  5
D1
330
1F
100
AcDbEntity
  8
0
  6
Continuous
 62
     7
370
    25
100
AcDbCircle
 10
151.395004093
 20
8.7425554949
 30
0.0
 40
2.0
100
AcDbArc
 50
180.0
 51
191.309932474
  0
LINE
  5
D2
330
1F
100
AcDbEntity
  8
0
  6
Continuous
 62
     7
370
    25
100
AcDbLine
 10
129.3950043166
 20
49.5445181962
 30
0.0
 11
129.3950043166
 21
8.7425553586
 31
0.0
  0
LINE
  5
D3
330
1F
100
AcDbEntity
  8
0
  6
Continuous
 62
     7
370
    25
100
AcDbLine
 10
149.3950038695
 20
8.7425553586
 30
0.0
 11
149.3950038695
 21
49.5445181962
 31
0.0
  0
LINE
  5
D4
330
1F
100
AcDbEntity
  8
0
  6
Continuous
 62
     7
370
    25
100
AcDbLine
 10
123.3950033331
 20
-65.4554838899
 30
0.0
 11
155.395004853
 21
-65.4554838899
 31
0.0
  0
LINE
  5
D5
330
1F
100
AcDbEntity
  8
0
  6
Continuous
 62
     7
370
    25
100
AcDbLine
 10
129.3950043166
 20
49.5445181962
 30
0.0
 11
149.3950038695
 21
49.5445181962
 31
0.0
  0
LINE
  5
D6
330
1F
100
AcDbEntity
  8
0
  6
Continuous
 62
     1
370
    25
100
AcDbLine
 10
123.3950033331
 20
-21.6535224233
 30
0.0
 11
155.395004853
 21
-21.6535224233
 31
0.0
  0
LINE
  5
D7
330
1F
100
AcDbEntity
  8
0
  6
Continuous
 62
     1
370
    25
100
AcDbLine
 10
123.4338432097
 20
-21.261290333
 30
0.0
 11
155.3561649764
 21
-21.261290333
 31
0.0
  0
LINE
  5
D8
330
1F
100
AcDbEntity
  8
0
  6
Continuous
 62
     1
370
    25
100
AcDbLine
 10
129.3561653712
 20
8.3503232684
 30
0.0
 11
149.4338428149
 21
8.3503232684
 31
0.0
  0
LINE
  5
D9
330
1F
100
AcDbEntity
  8
0
  6
Continuous
 62
     1
370
    25
100
AcDbLine
 10
129.3950043166
 20
8.7425553586
 30
0.0
 11
149.3950038695
 21
8.7425553586
 31
0.0
  0
LINE
  5
DA
330
1F
100
AcDbEntity
  8
0
  6
Continuous
 62
     7
370
    25
100
AcDbLine
 10
263.0243548479
 20
22.9675399981
 30
0.0
 11
232.0516908655
 21
40.8476783256
 31
0.0
  0
LINE
  5
DB
330
1F
100
AcDbEntity
  8
0
  6
Continuous
 62
     7
370
    25
100
AcDbLine
 10
216.0529908323
 20
13.1341147868
 30
0.0
 11
247.0256548146
 21
-4.7460235408
 31
0.0
  0
SPLINE
  5
DC
330
1F
100
AcDbEntity
  8
0
  6
Continuous
 62
     7
370
    25
100
AcDbSpline
210
0.0
220
0.0
230
1.0
 70
     8
 71
     3
 72
    11
 73
     7
 74
     0
 42
0.000000001
 43
0.00000001
 40
0.0
 40
0.0
 40
0.0
 40
0.0
 40
0.1064760164529461
 40
0.5366170057191594
 40
0.9621302504778391
 40
1.0
 40
1.0
 40
1.0
 40
1.0
 10
264.3312772537419
 20
21.97275742984363
 30
0.0
 10
264.2894245597838
 20
22.01621439916815
 30
0.0
 10
264.0784956758792
 20
22.23522849767982
 30
0.0
 10
263.6472862659481
 20
22.56447683924278
 30
0.0
 10
263.23768690073
 20
22.85830672291243
 30
0.0
 10
263.0054331438945
 20
22.97606149025187
 30
0.0
 10
262.9864523187338
 20
22.98568494126156
 30
0.0
  0
SPLINE
  5
DD
330
1F
100
AcDbEntity
  8
0
  6
Continuous
 62
     7
370
    25
100
AcDbSpline
210
0.0
220
0.0
230
1.0
 70
     8
 71
     3
 72
    10
 73
     6
 74
     0
 42
0.000000001
 43
0.00000001
 40
0.0
 40
0.0
 40
0.0
 40
0.0
 40
0.4295109441813068
 40
0.8616882976861564
 40
1.0
 40
1.0
 40
1.0
 40
1.0
 10
247.0201078942325
 20
-4.742482139022457
 30
0.0
 10
247.2280963893232
 20
-4.853506291455659
 30
0.0
 10
247.6453645746882
 20
-5.076243835651574
 30
0.0
 10
248.158112533865
 20
-5.281105151126394
 30
0.0
 10
248.4638036586148
 20
-5.35964658544949
 30
0.0
 10
248.5379166664196
 20
-5.378688492340779
 30
0.0
  0
LINE
  5
DE
330
1F
100
AcDbEntity
  8
0
  6
Continuous
 62
     7
370
    25
100
AcDbLine
 10
248.5314458081
 20
-5.3851928705
 30
0.0
 11
271.9823365803
 21
-12.1535191775
 31
0.0
  0
LINE
  5
DF
330
1F
100
AcDbEntity
  8
0
  6
Continuous
 62
     7
370
    25
100
AcDbLine
 10
281.919455458
 20
5.0599405843
 30
0.0
 11
264.3308794929
 21
21.9831939668
 31
0.0
  0
LINE
  5
E0
330
1F
100
AcDbEntity
  8
0
  6
Continuous
 62
     7
370
    25
100
AcDbLine
 10
310.3692156739
 20
-11.2920823569
 30
0.0
 11
281.7332335591
 21
5.2391182415
 31
0.0
  0
LINE
  5
E1
330
1F
100
AcDbEntity
  8
0
  6
Continuous
 62
     7
370
    25
100
AcDbLine
 10
271.7340465322
 20
-12.0818584951
 30
0.0
 11
300.3700286471
 21
-28.6130590934
 31
0.0
  0
LWPOLYLINE
  5
E2
330
1F
100
AcDbEntity
  8
0
  6
Continuous
 62
     7
370
    25
100
AcDbPolyline
 90
       87
 70
   128
 43
0.0
 10
212.7386318125
 20
20.4596313514
 10
212.7688142244
 20
21.4307137756
 10
212.8591981411
 20
22.4314615316
 10
213.0093028249
 20
23.4565362149
 10
213.2183268274
 20
24.5004682714
 10
213.4851545741
 20
25.5576874151
 10
213.8083636088
 20
26.6225538064
 10
214.1862278864
 20
27.6893854286
 10
214.6167329192
 20
28.752490406
 10
215.097580387
 20
29.8061955208
 10
215.6262052588
 20
30.8448808127
 10
216.1997876471
 20
31.8630035323
 10
216.815266637
 20
32.8551304595
 10
217.4693587255
 20
33.8159698411
 10
218.1585736269
 20
34.7403949637
 10
218.8792343578
 20
35.6234724794
 10
219.6274960061
 20
36.460491491
 10
220.3993661457
 20
37.2469859847
 10
221.1907262393
 20
37.9787601126
 10
221.9973545227
 20
38.6519097691
 10
222.8149469137
 20
39.2628415057
 10
223.6391413367
 20
39.8082987402
 10
224.4655403611
 20
40.2853687423
 10
225.2897347841
 20
40.6915061333
 10
226.1073271751
 20
41.0245464783
 10
226.9139554585
 20
41.2827100142
 10
227.7053155521
 20
41.4646208021
 10
228.4771856917
 20
41.5693086023
 10
229.22544734
 20
41.5962141006
 10
229.9461080709
 20
41.545193754
 10
230.6353229723
 20
41.4165192185
 10
231.2894150608
 20
41.2108784875
 10
231.9048940507
 20
40.9293684762
 10
232.478476439
 20
40.5734898858
 10
233.0071013108
 20
40.1451418795
 10
233.4879487786
 20
39.6466114337
 10
233.9184538114
 20
39.0805569872
 10
234.296318089
 20
38.4499981736
 10
234.6195271237
 20
37.7583009906
 10
234.8863548704
 20
37.0091546057
 10
235.0953788729
 20
36.2065565255
 10
235.2454835567
 20
35.3547890213
 10
235.3358674734
 20
34.4583963142
 10
235.3660498853
 20
33.522161761
 10
235.3358674734
 20
32.5510793368
 10
235.2454835567
 20
31.5503315808
 10
235.0953788729
 20
30.5252568975
 10
234.8863548704
 20
29.481324841
 10
234.6195271237
 20
28.4241056973
 10
234.296318089
 20
27.359239306
 10
233.9184538114
 20
26.2924076838
 10
233.4879487786
 20
25.2293027064
 10
233.0071013108
 20
24.1755975916
 10
232.478476439
 20
23.1369122997
 10
231.9048940507
 20
22.1187895801
 10
231.2894150608
 20
21.1266626529
 10
230.6353229723
 20
20.1658232713
 10
229.9461080709
 20
19.2413981487
 10
229.22544734
 20
18.358320633
 10
228.4771856917
 20
17.5213016214
 10
227.7053155521
 20
16.7348071277
 10
226.9139554585
 20
16.0030329998
 10
226.1073271751
 20
15.3298833433
 10
225.2897347841
 20
14.7189516067
 10
224.4655403611
 20
14.1734943722
 10
223.6391413367
 20
13.6964243701
 10
222.8149469137
 20
13.2902869791
 10
221.9973545227
 20
12.9572466341
 10
221.1907262393
 20
12.6990830982
 10
220.3993661457
 20
12.5171723103
 10
219.6274960061
 20
12.4124845101
 10
218.8792343578
 20
12.3855790118
 10
218.1585736269
 20
12.4365993584
 10
217.4693587255
 20
12.5652738939
 10
216.815266637
 20
12.7709146249
 10
216.1997876471
 20
13.0524246362
 10
215.6262052588
 20
13.4083032266
 10
215.097580387
 20
13.8366512329
 10
214.6167329192
 20
14.3351816787
 10
214.1862278864
 20
14.9012361252
 10
213.8083636088
 20
15.5317949388
 10
213.4851545741
 20
16.2234921218
 10
213.2183268274
 20
16.9726385067
 10
213.0093028249
 20
17.7752365869
 10
212.8591981411
 20
18.6270040911
 10
212.7688142244
 20
19.5233967982
 10
212.7386318125
 20
20.4596313514
  0
LWPOLYLINE
  5
E3
330
1F
100
AcDbEntity
  8
0
  6
Continuous
 62
     7
370
    25
100
AcDbPolyline
 90
       78
 70
   128
 43
0.0
 10
214.8599525038
 20
21.6842437199
 10
214.8905399206
 20
22.5671249583
 10
214.982096705
 20
23.4794452188
 10
215.1340150204
 20
24.4151339731
 10
215.3452833426
 20
25.3679636954
 10
215.6144950204
 20
26.3315935881
 10
215.9398601298
 20
27.2996117861
 10
216.3192120594
 20
28.2655750906
 10
216.7500266082
 20
29.2230559259
 10
217.2294364733
 20
30.1656815018
 10
217.7542523237
 20
31.0871798196
 10
218.3209805807
 20
31.9814176937
 10
218.9258500893
 20
32.8424446656
 10
219.5648358254
 20
33.6645310253
 10
220.2336849086
 20
34.4422048808
 10
220.9279465658
 20
35.1702915096
 10
221.6430004487
 20
35.8439456757
 10
222.3740882441
 20
36.4586843266
 10
223.1163444604
 20
37.0104165333
 10
223.8648295816
 20
37.4954702346
 10
224.6145625624
 20
37.9106178397
 10
225.3605540843
 20
38.2530969482
 10
226.097839689
 20
38.5206271958
 10
226.8215126024
 20
38.7114292032
 10
227.5267574649
 20
38.8242334017
 10
228.2088805005
 20
38.858288324
 10
228.8633423618
 20
38.8133681584
 10
229.485788094
 20
38.6897710348
 10
230.0720751229
 20
38.4883199726
 10
230.6183015724
 20
38.2103556537
 10
231.1208322766
 20
37.8577271046
 10
231.5763238052
 20
37.4327818076
 10
231.9817448777
 20
36.9383474483
 10
232.3343961203
 20
36.3777144227
 10
232.6319324559
 20
35.7546141619
 10
232.8723729827
 20
35.0731925152
 10
233.0541167789
 20
34.3379840831
 10
233.1759560739
 20
33.5538824625
 10
233.2370788824
 20
32.7261050278
 10
233.2370788824
 20
31.8601608955
 10
233.1759560739
 20
30.9618125683
 10
233.0541167789
 20
30.0370382919
 10
232.8723729827
 20
29.0919929392
 10
232.6319324559
 20
28.1329645694
 10
232.3343961203
 20
27.1663361677
 10
231.9817448777
 20
26.1985406841
 10
231.5763238052
 20
25.236017118
 10
231.1208322766
 20
24.2851724962
 10
230.6183015724
 20
23.3523343461
 10
230.0720751229
 20
22.4437103927
 10
229.485788094
 20
21.5653467353
 10
228.8633423618
 20
20.7230890664
 10
228.2088805005
 20
19.9225433197
 10
227.5267574649
 20
19.169035749
 10
226.8215126024
 20
18.4675815612
 10
226.097839689
 20
17.8228486076
 10
225.3605540843
 20
17.2391270154
 10
224.6145625624
 20
16.7203026461
 10
223.8648295816
 20
16.2698269769
 10
223.1163444604
 20
15.8906981518
 10
222.3740882441
 20
15.5854395727
 10
221.6430004487
 20
15.3560822222
 10
220.9279465658
 20
15.2041527481
 10
220.2336849086
 20
15.1306619296
 10
219.5648358254
 20
15.1360990711
 10
218.9258500893
 20
15.2204282035
 10
218.3209805807
 20
15.383087706
 10
217.7542523237
 20
15.6229950623
 10
217.2294364733
 20
15.9385538971
 10
216.7500266082
 20
16.3276646246
 10
216.3192120594
 20
16.7877375695
 10
215.9398601298
 20
17.3157104589
 10
215.6144950204
 20
17.9080700977
 10
215.3452833426
 20
18.5608748033
 10
215.1340150204
 20
19.269779313
 10
214.982096705
 20
20.0300669138
 10
214.8905399206
 20
20.8366779611
 10
214.8599525038
 20
21.6842437199
  0
LINE
  5
E4
330
1F
100
AcDbEntity
  8
0
  6
Continuous
 62
     7
370
    25
100
AcDbLine
 10
262.9951134961
 20
22.9842976405
 30
0.0
 11
263.0243548479
 21
22.9675399981
 31
0.0
  0
LWPOLYLINE
  5
E5
330
1F
100
AcDbEntity
  8
0
  6
Continuous
 62
     7
370
    25
100
AcDbPolyline
 90
       36
 70
   128
 43
0.0
 10
310.3692156739
 20
-11.2920823569
 10
310.5952044415
 20
-11.4349063257
 10
311.0124562661
 20
-11.7742742861
 10
311.3815651945
 20
-12.183416283
 10
311.6993827253
 20
-12.6588422568
 10
311.9631963137
 20
-13.1964958341
 10
312.1707563718
 20
-13.7917895015
 10
312.3202914146
 20
-14.4396450068
 10
312.4105258417
 20
-15.1345347582
 10
312.4406898143
 20
-15.8705302573
 10
312.4105258417
 20
-16.641352338
 10
312.3202914146
 20
-17.4404245412
 10
312.1707563718
 20
-18.260929532
 10
311.9631963137
 20
-19.0958669415
 10
311.6993827253
 20
-19.9381132046
 10
311.3815651945
 20
-20.7804834889
 10
311.0124562661
 20
-21.6157895833
 10
310.5952044415
 20
-22.4369062461
 10
310.1333698122
 20
-23.2368272863
 10
309.6308924501
 20
-24.0087282995
 10
309.0920598091
 20
-24.7460231288
 10
308.5214682007
 20
-25.4424226071
 10
307.9239864091
 20
-26.0919836983
 10
307.3047117333
 20
-26.6891660531
 10
306.668927429
 20
-27.2288740677
 10
306.0220579685
 20
-27.7065032444
 10
305.3696221605
 20
-28.1179786615
 10
304.7171863525
 20
-28.4597895941
 10
304.070316892
 20
-28.7290199992
 10
303.4345325877
 20
-28.9233729173
 10
302.8152579119
 20
-29.041189884
 10
302.2177761203
 20
-29.0814665859
 10
301.6471845119
 20
-29.043858156
 10
301.1083518709
 20
-28.9286862516
 10
300.6058745088
 20
-28.7369332519
 10
300.3700286471
 20
-28.6130590934
  0
LWPOLYLINE
  5
E6
330
1F
100
AcDbEntity
  8
0
  6
Continuous
 62
     1
370
    25
100
AcDbPolyline
 90
       45
 70
   128
 43
0.0
 10
263.0243548479
 20
22.9675399981
 10
263.4511404214
 20
22.6933515582
 10
263.9797652932
 20
22.2650035519
 10
264.4606127609
 20
21.7664731062
 10
264.8911177938
 20
21.2004186597
 10
265.2689820714
 20
20.5698598461
 10
265.5921911061
 20
19.8781626631
 10
265.8590188527
 20
19.1290162781
 10
266.0680428552
 20
18.3264181979
 10
266.2181475391
 20
17.4746506937
 10
266.3085314557
 20
16.5782579866
 10
266.3387138676
 20
15.6420234334
 10
266.3085314557
 20
14.6709410092
 10
266.2181475391
 20
13.6701932533
 10
266.0680428552
 20
12.64511857
 10
265.8590188527
 20
11.6011865135
 10
265.5921911061
 20
10.5439673698
 10
265.2689820714
 20
9.4791009784
 10
264.8911177938
 20
8.4122693562
 10
264.4606127609
 20
7.3491643788
 10
263.9797652932
 20
6.295459264
 10
263.4511404214
 20
5.2567739721
 10
262.8775580331
 20
4.2386512525
 10
262.2620790432
 20
3.2465243253
 10
261.6079869546
 20
2.2856849438
 10
260.9187720533
 20
1.3612598211
 10
260.1981113224
 20
0.4781823055
 10
259.4498496741
 20
-0.3588367062
 10
258.6779795345
 20
-1.1453311999
 10
257.8866194408
 20
-1.8771053277
 10
257.0799911574
 20
-2.5502549843
 10
256.2623987665
 20
-3.1611867208
 10
255.4382043434
 20
-3.7066439554
 10
254.6118053191
 20
-4.1837139574
 10
253.787610896
 20
-4.5898513485
 10
252.9700185051
 20
-4.9228916935
 10
252.1633902217
 20
-5.1810552294
 10
251.3720301281
 20
-5.3629660173
 10
250.6001599884
 20
-5.4676538175
 10
249.8518983401
 20
-5.4945593158
 10
249.1312376092
 20
-5.4435389692
 10
248.4420227079
 20
-5.3148644336
 10
247.7879306193
 20
-5.1092237027
 10
247.1724516294
 20
-4.8277136913
 10
247.0256548146
 20
-4.7460235408
  0
LWPOLYLINE
  5
E7
330
1F
100
AcDbEntity
  8
0
  6
Continuous
 62
     1
370
    25
100
AcDbPolyline
 90
       41
 70
   128
 43
0.0
 10
264.3350230549
 20
21.9792026688
 10
264.7150585537
 20
21.575641064
 10
265.1445184765
 20
21.010960872
 10
265.5214660601
 20
20.3819333364
 10
265.8438901098
 20
19.6919149489
 10
266.1100705072
 20
18.9445872717
 10
266.3185867718
 20
18.1439371649
 10
266.4683272806
 20
17.2942373934
 10
266.5584912434
 20
16.4000202963
 10
266.5885998983
 20
15.4660581082
 10
266.5584912434
 20
14.497333207
 10
266.4683272806
 20
13.4990150143
 10
266.3185867718
 20
12.4764285314
 10
266.1100705072
 20
11.4350306699
 10
265.8438901098
 20
10.3803776475
 10
265.5214660601
 20
9.3180963761
 10
265.1445184765
 20
8.2538544242
 10
264.7150585537
 20
7.1933303598
 10
264.2353786854
 20
6.1421821919
 10
263.7080366583
 20
5.1060184746
 10
263.1358464331
 20
4.0903671287
 10
262.5218616807
 20
3.1006480671
 10
261.8693573429
 20
2.1421412565
 10
261.1818151446
 20
1.2199608633
 10
260.4629038372
 20
0.3390263581
 10
259.716458784
 20
-0.4959606771
 10
258.9464622035
 20
-1.2805462045
 10
258.1570230842
 20
-2.0105444515
 10
257.3523528182
 20
-2.6820588213
 10
256.5367451158
 20
-3.2915086969
 10
255.7145513098
 20
-3.8356406562
 10
254.8901582944
 20
-4.3115526139
 10
254.0679644883
 20
-4.716705417
 10
253.2523567859
 20
-5.0489361503
 10
252.44768652
 20
-5.3064742942
 10
251.6582474007
 20
-5.4879430532
 10
250.8882508202
 20
-5.5923766543
 10
250.1418057669
 20
-5.6192167332
 10
249.4228944595
 20
-5.5683195556
 10
248.7353522612
 20
-5.4399584877
 10
248.5345277964
 20
-5.3860813804
  0
LWPOLYLINE
  5
E8
330
1F
100
AcDbEntity
  8
0
  6
Continuous
 62
     1
370
    25
100
AcDbPolyline
 90
       32
 70
   128
 43
0.0
 10
281.919455458
 20
5.0599405843
 10
282.2762199696
 20
4.6623952838
 10
282.5952716128
 20
4.1851227903
 10
282.860110555
 20
3.645381456
 10
283.0684766715
 20
3.0477757157
 10
283.2185925507
 20
2.3974040694
 10
283.3091773234
 20
1.6998154023
 10
283.339458517
 20
0.9609614072
 10
283.3091773234
 20
0.1871454902
 10
283.2185925507
 20
-0.6150301292
 10
283.0684766715
 20
-1.4387218803
 10
282.860110555
 20
-2.276902018
 10
282.5952716128
 20
-3.1224198864
 10
282.2762199696
 20
-3.9680615662
 10
281.9056773898
 20
-4.8066120411
 10
281.4868052164
 20
-5.630917743
 10
281.0231770412
 20
-6.433945296
 10
280.5187480824
 20
-7.2088440609
 10
279.977822587
 20
-7.9490025971
 10
279.4050149763
 20
-8.6481064537
 10
278.8052126385
 20
-9.3001912084
 10
278.1835327935
 20
-9.8996928444
 10
277.5452791942
 20
-10.4414970809
 10
276.8958973864
 20
-10.9209811711
 10
276.2409275815
 20
-11.3340547959
 10
275.5859577766
 20
-11.6771932114
 10
274.9365759688
 20
-11.9474693975
 10
274.2983223696
 20
-12.142577081
 10
273.6766425246
 20
-12.2608517157
 10
273.0768401867
 20
-12.3012839997
 10
272.504032576
 20
-12.2635297332
 10
271.9823365803
 20
-12.1535191775
  0
LWPOLYLINE
  5
E9
330
1F
100
AcDbEntity
  8
0
  6
Continuous
 62
     1
370
    25
100
AcDbPolyline
 90
       34
 70
   128
 43
0.0
 10
281.7751624294
 20
5.1987754414
 10
282.1611116579
 20
4.8812524334
 10
282.5302205863
 20
4.4721104365
 10
282.8480381171
 20
3.9966844626
 10
283.1118517056
 20
3.4590308853
 10
283.3194117636
 20
2.8637372179
 10
283.4689468065
 20
2.2158817127
 10
283.5591812335
 20
1.5209919613
 10
283.5893452061
 20
0.7849964621
 10
283.5591812335
 20
0.0141743815
 10
283.4689468065
 20
-0.7848978218
 10
283.3194117636
 20
-1.6054028126
 10
283.1118517056
 20
-2.440340222
 10
282.8480381171
 20
-3.2825864851
 10
282.5302205863
 20
-4.1249567694
 10
282.1611116579
 20
-4.9602628639
 10
281.7438598333
 20
-5.7813795266
 10
281.282025204
 20
-6.5813005669
 10
280.7795478419
 20
-7.3532015801
 10
280.2407152009
 20
-8.0904964094
 10
279.6701235925
 20
-8.7868958876
 10
279.0726418009
 20
-9.4364569788
 10
278.4533671251
 20
-10.0336393336
 10
277.8175828208
 20
-10.5733473483
 10
277.1707133603
 20
-11.050976525
 10
276.5182775523
 20
-11.4624519421
 10
275.8658417444
 20
-11.8042628747
 10
275.2189722838
 20
-12.0734932797
 10
274.5831879796
 20
-12.2678461979
 10
273.9639133038
 20
-12.3856631646
 10
273.3664315121
 20
-12.4259398664
 10
272.7958399037
 20
-12.3883314365
 10
272.2570072627
 20
-12.2731595322
 10
271.7899503755
 20
-12.0979932704
  0
ENDSEC
  0
SECTION
  2
OBJECTS
  0
DICTIONARY
  5
C
330
0
100
AcDbDictionary
281
     1
  3
ACAD_GROUP
350
D
  3
ACAD_LAYOUT
350
1A
  3
ACAD_MLINESTYLE
350
17
  3
ACAD_PLOTSETTINGS
350
19
  3
ACAD_PLOTSTYLENAME
350
E
  3
ACAD_SCALELIST
350
47
  0
DICTIONARY
  5
D
102
{ACAD_REACTORS
330
C
102
}
330
C
100
AcDbDictionary
281
     1
  0
DICTIONARY
  5
1A
102
{ACAD_REACTORS
330
C
102
}
330
C
100
AcDbDictionary
281
     1
  3
Layout1
350
1E
  3
Layout2
350
26
  3
Model
350
22
  0
DICTIONARY
  5
17
102
{ACAD_REACTORS
330
C
102
}
330
C
100
AcDbDictionary
281
     1
  3
Standard
350
18
  0
DICTIONARY
  5
19
102
{ACAD_REACTORS
330
C
102
}
330
C
100
AcDbDictionary
281
     1
  0
ACDBDICTIONARYWDFLT
  5
E
102
{ACAD_REACTORS
330
C
102
}
330
C
100
AcDbDictionary
281
     1
  3
Normal
350
F
100
AcDbDictionaryWithDefault
340
F
  0
DICTIONARY
  5
47
102
{ACAD_REACTORS
330
C
102
}
330
C
100
AcDbDictionary
281
     1
  3
A0
350
48
  3
A1
350
49
  3
A2
350
4A
  3
A3
350
4B
  3
A4
350
4C
  3
A5
350
4D
  3
A6
350
4E
  3
A7
350
4F
  3
A8
350
50
  3
A9
350
51
  3
B0
350
52
  3
B1
350
53
  3
B2
350
54
  3
B3
350
55
  3
B4
350
56
  3
B5
350
57
  3
B6
350
58
  3
B7
350
59
  3
B8
350
5A
  3
B9
350
5B
  3
C0
350
5C
  3
C1
350
5D
  3
C2
350
5E
  3
C3
350
5F
  3
C4
350
60
  3
C5
350
61
  3
C6
350
62
  3
C7
350
63
  3
C8
350
64
  3
C9
350
65
  3
D0
350
66
  3
D1
350
67
  3
D2
350
68
  0
LAYOUT
  5
1E
102
{ACAD_REACTORS
330
1A
102
}
330
1A
100
AcDbPlotSettings
  1

  2
none_device
  4

  6

 40
0.0
 41
0.0
 42
0.0
 43
0.0
 44
0.0
 45
0.0
 46
0.0
 47
0.0
 48
0.0
 49
0.0
140
0.0
141
0.0
142
1.0
143
1.0
 70
   688
 72
     1
 73
     0
 74
     5
  7

 75
    16
147
1.0
148
0.0
149
0.0
100
AcDbLayout
  1
Layout1
 70
     1
 71
     1
 10
0.0
 20
0.0
 11
420.0
 21
297.0
 12
0.0
 22
0.0
 32
0.0
 14
1.0000000000E+20
 24
1.0000000000E+20
 34
1.0000000000E+20
 15
-1.0000000000E+20
 25
-1.0000000000E+20
 35
-1.0000000000E+20
146
0.0
 13
0.0
 23
0.0
 33
0.0
 16
1.0
 26
0.0
 36
0.0
 17
0.0
 27
1.0
 37
0.0
 76
     0
330
1B
  0
LAYOUT
  5
26
102
{ACAD_REACTORS
330
1A
102
}
330
1A
100
AcDbPlotSettings
  1

  2
none_device
  4

  6

 40
0.0
 41
0.0
 42
0.0
 43
0.0
 44
0.0
 45
0.0
 46
0.0
 47
0.0
 48
0.0
 49
0.0
140
0.0
141
0.0
142
1.0
143
1.0
 70
   688
 72
     1
 73
     0
 74
     5
  7

 75
    16
147
1.0
148
0.0
149
0.0
100
AcDbLayout
  1
Layout2
 70
     1
 71
     2
 10
0.0
 20
0.0
 11
0.0
 21
0.0
 12
0.0
 22
0.0
 32
0.0
 14
0.0
 24
0.0
 34
0.0
 15
0.0
 25
0.0
 35
0.0
146
0.0
 13
0.0
 23
0.0
 33
0.0
 16
1.0
 26
0.0
 36
0.0
 17
0.0
 27
1.0
 37
0.0
 76
     0
330
23
  0
LAYOUT
  5
22
102
{ACAD_REACTORS
330
1A
102
}
330
1A
100
AcDbPlotSettings
  1

  2
none_device
  4
Letter_(8.50_x_11.00_Inches)
  6

 40
6.35
 41
6.35
 42
6.35000508
 43
6.35000508
 44
215.9
 45
279.4
 46
0.0
 47
0.0
 48
0.0
 49
0.0
140
0.0
141
0.0
142
1.0
143
1.0
 70
  1712
 72
     1
 73
     0
 74
     0
  7

 75
     0
147
1.0
148
0.0
149
0.0
100
AcDbLayout
  1
Model
 70
     1
 71
     0
 10
0.0
 20
0.0
 11
279.4
 21
215.9
 12
0.0
 22
0.0
 32
0.0
 14
0.0
 24
0.0
 34
0.0
 15
279.4
 25
215.9
 35
0.0
146
0.0
 13
0.0
 23
0.0
 33
0.0
 16
1.0
 26
0.0
 36
0.0
 17
0.0
 27
1.0
 37
0.0
 76
     0
330
1F
331
29
  0
MLINESTYLE
  5
18
102
{ACAD_REACTORS
330
17
102
}
330
17
100
AcDbMlineStyle
  2
Standard
 70
     0
  3

 62
   256
 51
90.0
 52
90.0
 71
     2
 49
0.5
 62
   256
  6
BYLAYER
 49
-0.5
 62
   256
  6
BYLAYER
  0
ACDBPLACEHOLDER
  5
F
102
{ACAD_REACTORS
330
E
102
}
330
E
  0
SCALE
  5
48
102
{ACAD_REACTORS
330
47
102
}
330
47
100
AcDbScale
 70
     0
300
1:1
140
1.0
141
1.0
290
     1
  0
SCALE
  5
49
102
{ACAD_REACTORS
330
47
102
}
330
47
100
AcDbScale
 70
     0
300
1:2
140
1.0
141
2.0
290
     0
  0
SCALE
  5
4A
102
{ACAD_REACTORS
330
47
102
}
330
47
100
AcDbScale
 70
     0
300
1:4
140
1.0
141
4.0
290
     0
  0
SCALE
  5
4B
102
{ACAD_REACTORS
330
47
102
}
330
47
100
AcDbScale
 70
     0
300
1:5
140
1.0
141
5.0
290
     0
  0
SCALE
  5
4C
102
{ACAD_REACTORS
330
47
102
}
330
47
100
AcDbScale
 70
     0
300
1:8
140
1.0
141
8.0
290
     0
  0
SCALE
  5
4D
102
{ACAD_REACTORS
330
47
102
}
330
47
100
AcDbScale
 70
     0
300
1:10
140
1.0
141
10.0
290
     0
  0
SCALE
  5
4E
102
{ACAD_REACTORS
330
47
102
}
330
47
100
AcDbScale
 70
     0
300
1:16
140
1.0
141
16.0
290
     0
  0
SCALE
  5
4F
102
{ACAD_REACTORS
330
47
102
}
330
47
100
AcDbScale
 70
     0
300
1:20
140
1.0
141
20.0
290
     0
  0
SCALE
  5
50
102
{ACAD_REACTORS
330
47
102
}
330
47
100
AcDbScale
 70
     0
300
1:30
140
1.0
141
30.0
290
     0
  0
SCALE
  5
51
102
{ACAD_REACTORS
330
47
102
}
330
47
100
AcDbScale
 70
     0
300
1:40
140
1.0
141
40.0
290
     0
  0
SCALE
  5
52
102
{ACAD_REACTORS
330
47
102
}
330
47
100
AcDbScale
 70
     0
300
1:50
140
1.0
141
50.0
290
     0
  0
SCALE
  5
53
102
{ACAD_REACTORS
330
47
102
}
330
47
100
AcDbScale
 70
     0
300
1:100
140
1.0
141
100.0
290
     0
  0
SCALE
  5
54
102
{ACAD_REACTORS
330
47
102
}
330
47
100
AcDbScale
 70
     0
300
2:1
140
2.0
141
1.0
290
     0
  0
SCALE
  5
55
102
{ACAD_REACTORS
330
47
102
}
330
47
100
AcDbScale
 70
     0
300
4:1
140
4.0
141
1.0
290
     0
  0
SCALE
  5
56
102
{ACAD_REACTORS
330
47
102
}
330
47
100
AcDbScale
 70
     0
300
8:1
140
8.0
141
1.0
290
     0
  0
SCALE
  5
57
102
{ACAD_REACTORS
330
47
102
}
330
47
100
AcDbScale
 70
     0
300
10:1
140
10.0
141
1.0
290
     0
  0
SCALE
  5
58
102
{ACAD_REACTORS
330
47
102
}
330
47
100
AcDbScale
 70
     0
300
100:1
140
100.0
141
1.0
290
     0
  0
SCALE
  5
59
102
{ACAD_REACTORS
330
47
102
}
330
47
100
AcDbScale
 70
     0
300
1/128" = 1'-0"
140
0.0078125
141
12.0
290
     0
  0
SCALE
  5
5A
102
{ACAD_REACTORS
330
47
102
}
330
47
100
AcDbScale
 70
     0
300
1/64" = 1'-0"
140
0.015625
141
12.0
290
     0
  0
SCALE
  5
5B
102
{ACAD_REACTORS
330
47
102
}
330
47
100
AcDbScale
 70
     0
300
1/32" = 1'-0"
140
0.03125
141
12.0
290
     0
  0
SCALE
  5
5C
102
{ACAD_REACTORS
330
47
102
}
330
47
100
AcDbScale
 70
     0
300
1/16" = 1'-0"
140
0.0625
141
12.0
290
     0
  0
SCALE
  5
5D
102
{ACAD_REACTORS
330
47
102
}
330
47
100
AcDbScale
 70
     0
300
3/32" = 1'-0"
140
0.09375
141
12.0
290
     0
  0
SCALE
  5
5E
102
{ACAD_REACTORS
330
47
102
}
330
47
100
AcDbScale
 70
     0
300
1/8" = 1'-0"
140
0.125
141
12.0
290
     0
  0
SCALE
  5
5F
102
{ACAD_REACTORS
330
47
102
}
330
47
100
AcDbScale
 70
     0
300
3/16" = 1'-0"
140
0.1875
141
12.0
290
     0
  0
SCALE
  5
60
102
{ACAD_REACTORS
330
47
102
}
330
47
100
AcDbScale
 70
     0
300
1/4" = 1'-0"
140
0.25
141
12.0
290
     0
  0
SCALE
  5
61
102
{ACAD_REACTORS
330
47
102
}
330
47
100
AcDbScale
 70
     0
300
3/8" = 1'-0"
140
0.375
141
12.0
290
     0
  0
SCALE
  5
62
102
{ACAD_REACTORS
330
47
102
}
330
47
100
AcDbScale
 70
     0
300
1/2" = 1'-0"
140
0.5
141
12.0
290
     0
  0
SCALE
  5
63
102
{ACAD_REACTORS
330
47
102
}
330
47
100
AcDbScale
 70
     0
300
3/4" = 1'-0"
140
0.75
141
12.0
290
     0
  0
SCALE
  5
64
102
{ACAD_REACTORS
330
47
102
}
330
47
100
AcDbScale
 70
     0
300
1" = 1'-0"
140
1.0
141
12.0
290
     0
  0
SCALE
  5
65
102
{ACAD_REACTORS
330
47
102
}
330
47
100
AcDbScale
 70
     0
300
1-1/2" = 1'-0"
140
1.5
141
12.0
290
     0
  0
SCALE
  5
66
102
{ACAD_REACTORS
330
47
102
}
330
47
100
AcDbScale
 70
     0
300
3" = 1'-0"
140
3.0
141
12.0
290
     0
  0
SCALE
  5
67
102
{ACAD_REACTORS
330
47
102
}
330
47
100
AcDbScale
 70
     0
300
6" = 1'-0"
140
6.0
141
12.0
290
     0
  0
SCALE
  5
68
102
{ACAD_REACTORS
330
47
102
}
330
47
100
AcDbScale
 70
     0
300
1'-0" = 1'-0"
140
12.0
141
12.0
290
     0
  0
ENDSEC
  0
EOF
